The following tab comes to us courtesy of James Simpson


#------------------------PLEASE NOTE---------------------------------#
This file is the author's own work and represents their interpretation of the 
song. You may only use this file for private study, scholarship, or research. 
#-----------------------------------------------------------------##
From: James Simpson 
** Wading Through The Darkness (Partial TAB)
** by FLOTSAM & JETSAM
** album ‘Cuatro’
** TABBED by James Simpson
INTRO:(With lots of variations (ie. listen to the song!) like a drop in
       Octave, Bass lines etc..)
RIFF A 8x
e:--------0-----------0------------0-------0----------0--------------|
b:-----------3------------------7-------------3----------------------|
g:-----------------4-------4/7---------------------4-----------------|
D:-------------------------------------------------------4-----2-----|
A:-------------------------------------------------------2--5--2-----|
E:--0---------------------------------0---------------------3--0-----|
RIFF B 2x
e:---------0-------------------------0---------------|
b:-----------3-------------------------3-------------|
g:---------------------------------------------------|
D:----------------------5--3-------------------------|
A:----------------------------------------5--3--2----|
E:-0--0-0-------0-0-0-0------0--0-0-------3--1--0----|
RIFF C 
e:--------------------------------|
b:--------------------------------|
g:--------------------------------|
D:--------------------------------|
A:--7--10--9---10-----12-----7----|
E:--5---8--7----8-----10-----5----|
RIFF D 3x (Chorus)
e:-------------------------------|
b:-------------------------------|
g:-------------------------------|
D:-------------------------------|
A:----10--9---10-----12-----7----|
E:-----8--7----8-----10-----5----|
Solo
Riff A
Riff B 
Riff C
Solo
Riff A
Riff B
Riff C
Out Solo
As you can see this is very incomplete and I may have missed a few things.  Hey, it’s my first transcription so cut me a little slack.  
hahahaha