The following tab comes to us courtesy of James Simpson


#----------------------------------PLEASE NOTE---------------------------------#
#This file is the author's own work and represents their interpretation of the #
#song. You may only use this file for private study, scholarship, or research. #
#------------------------------------------------------------------------------#
Artist: Flotsam and Jetsam
Album: No Place For Disgrace
Track: Escape From Within
Tabbed by Phil Tuncap (a_GWAR_slave@hotmail.com)
4.29.02
Standard E tuning
Intro: ???
Ac. Riff 2
e|---0-------0---3-|
B|-----0---3---1---|
G|-------0---------| x4
D|-2---------------|
A|-----------------|
E|-----------------|
e|---0-------0---3----0-------0---3-|
B|-----0---3---1--------0---3---1---|
G|-------0----------------0---------|
D|------------------0---------------|
A|-3--------------------------------|
E|----------------------------------|
e|---0-------0---3-|
B|-----0---3---1---|
G|-------0---------| x2
D|-2---------------|
A|-----------------|
E|-----------------|
e|---0-------0---3---------0--------|
B|-----0---3---1---------0---0------|
G|-------0-------------0-------0----|
D|-------------------1-----------1--|
A|-3---------------2----------------|
E|----------------------------------|
Bass(?) interlude:
E|-2-3-5-3-2-3-2-3-|
Repeat Ac. Riff 2 w/ 2nd guitar in background (not tabbed)
e|---------------------------------------|
B|---------------------------------------|
G|---------------------------------------|
D|---------------------------------------|
A|---------------------------------------|
E|---------------------------------------|
e|---------------------------------------|
B|---------------------------------------|
G|---------------------------------------|
D|---------------------------------------|
A|---------------------------------------|
E|---------------------------------------|
e|---------------------------------------|
B|---------------------------------------|
G|---------------------------------------|
D|---------------------------------------|
A|---------------------------------------|
E|---------------------------------------|
e|---------------------------------------|
B|---------------------------------------|
G|---------------------------------------|
D|---------------------------------------|
A|---------------------------------------|
E|---------------------------------------|
e|---------------------------------------|
B|---------------------------------------|
G|---------------------------------------|
D|---------------------------------------|
A|---------------------------------------|
E|---------------------------------------|
I'm still working on it, how bout you? ;p Lemme know.
notation:
^   =  bend [ ^ = half, ^^ = whole, etc. ]
^r  =  bend and release
x   =  mute with fret-hand
*   =  mute with palm-hand
X\\ =  pick slide
h   =  hammer-on
p   =  pull-off
~   =  vibrato
t   =  tap-on
/   =  slide up
\   =  slide down
h.  =  harmonics
ah  =  artificial harmonic
(9) =  ghost note
tm  =  trem picking
tr  =  trill